• Almost Easy tab

    *The solo is almost dead on. It's typical sweeps that Syn always uses.
    *The only part I'm missing is the Rhythm Guitar for the first half
    of the solo. So if anybody knows what the Rhythm Guitar Chords are during
    the first half, then leave it in the comments of this
    tab. Make sure you tab it out in Db Ab Db Gb Bb Eb.


    Tuning: Drop D, down half step (Db Ab Db Gb Bb Eb) (low to high) [For all Guitars]


    Key:

    b = bend
    h = hammer on
    p = pull off
    ... = palm mute
    / = slide down
    \ = slide up
    x = muffled string (lightly mute with your fret hand)
    1 = full step bend
    .5 = half step bend
    1.5 = one and a half step bend
    () = bring bent note to normal
    ___ = which notes are downstroke or upstroke
    V = downstroke
    ^ = upstroke
    ~ = vibrato or ring out.


    *The numbers above the b's are the steps you bend that note.*


    ++++++++++++++++++++++++++++++++++++++++++++
    Intro: Bend all of the bends slowly. Syn might be pushing down the wammy bar lightly
    the bend
    or he's just releasing the bend slowly. Either way works.
    Guitar 1:
    1 1 1.5
    eb|-/13--12----------------/13--12---------15b----/13--12----------------/13--12--18--17--17\-|
    Bb|---------13\-----13b------------13\--------------------13\----13b--------------------------|
    Gb|------------/12---------------------/12-------------------/12------------------------------|
    Db|-------------------------------------------------------------------------------------------|
    Ab|-------------------------------------------------------------------------------------------|
    Db|-------------------------------------------------------------------------------------------|

    Guitar 2: Listen for rhythm. Play this twice over the intro.
    eb|---------------------|
    Bb|---------------------|
    Gb|-7---5---------------|
    Db|-7---5---5---7---8---|
    Ab|-5---3---5---7---8---|
    Db|---------5---7---8---|

    ++++++++++++++++++++++++++++++++++++++++++++++
    Riff:
    Guitars 1 and 2:
    .5 .5
    eb|---------------------------------------------------------------------|
    Bb|---------------------------------------------------------------------|
    Gb|---------------------------------------------------------------------|
    Db|-7\-------------8\6-----6\3-----6/7----------------------------------|
    Ab|-5\-------------6\4-----4\1-----4/5----------------------------------|
    Db|----0-0-0-0-0-0-----0-0-----0-0-----0-0-0-0-0-0---0-0-0-7b--0-0-0-6b-|
    ........... ... ... ........... ..... .....

    ++++++++++++++++++++++++++++++++++++++++++++++
    Guitars 1 and 2:
    eb|---------------------------------------------------------------|
    Bb|---------------------------------------------------------------|
    Gb|---------------------------------------------------------------|
    Db|-7\-------------8\6-----6\3-----6/7----------------------------|
    Ab|-5\-------------6\4-----4\1-----4/5----------------------------|
    Db|----0-0-0-0-0-0-----0-0-----0-0-----0-0-0-0-0-0--000000-5-6-5~-|
    ........... ... ... ........... ......

    ++++++++++++++++++++++++++++++++++++++++++++++
    Verse 1:
    Guitars 1 and 2: Play this twice.
    eb|---------------------------------------------------------------|
    Bb|---------------------------------------------------------------|
    Gb|---------------------------------------------------------------|
    Db|---------------------------------------------------------------|
    Ab|-0--0-0-0-0-0-0--0--0-0-0-0-0-0--0--0-0-0-0-0-0----------------|
    Db|-0--0-0-0-0-0-0--0--0-0-0-0-0-0--0--0-0-0-0-0-0--000000-5-6-5~-|
    ........... ........... ........... ......

    ++++++++++++++++++++++++++++++++++++++++++++++
    Guitars 1 and 2: Play this once.
    eb|---------------------------------------------------------------|
    Bb|---------------------------------------------------------------|
    Gb|---------------------------------------------------------------|
    Db|---------------------------------------------------------------|
    Ab|-0--000-000-000--0--000-000-000--0--000-000-000----------------|
    Db|-0--000-000-000--0--000-000-000--0--000-000-000--000000-5-6-5~-|
    ........... ........... ........... ......

    ++++++++++++++++++++++++++++++++++++++++++++++
    Guitars 1 and 2: Play this once.
    eb|---------------------------------------------------------------|
    Bb|---------------------------------------------------------------|
    Gb|---------------------------------------------------------------|
    Db|---------------------------------------------------------------|
    Ab|-0--0-0-0-0-0-0--0--0-0-0-0-0-0--0--0-0-0-0-0-0----------------|
    Db|-0--0-0-0-0-0-0--0--0-0-0-0-0-0--0--0-0-0-0-0-0--000000-5-6-5~-|
    ........... ........... ........... ......

    End of Verse 1.
    ++++++++++++++++++++++++++++++++++++++++++++++
    Pre Chorus 1
    Guitars 1 and 2: This is as close as I could get this part sounding like the song.
    eb|----------------------------------------------------------------------|
    Bb|----------------------------------------------------------------------|
    Gb|-x-x--7-7--x-x--5-5--x-x--3-3--x-x--7-7--x-x--6--x--10-10-10-10--9-9--|
    Db|-x-x--7-7--x-x--5-5--x-x--3-3--x-x--7-7--x-x--x--x---x--x--x--x--x-x--|
    Ab|-x-x--5-5--x-x--3-3--x-x--1-1--x-x--5-5--x-x--4--x---8--8--8--8--7-7--|
    Db|----------------------------------------------------------------------|

    +++++++++++++++++++++++++++++++++++++++++++++++
    Pre Chorus continued
    Guitars 1 and 2:
    eb|-----------------------------------------------------------------------------|
    Bb|-----------------------------------------------------------------------------|
    Gb|-x-x--7-7--x-x--5-5--x-x--3-3--x-x--7-7--x-x--6--x---12-12-12-12-10-10-10-9\-|
    Db|-x-x--7-7--x-x--5-5--x-x--3-3--x-x--7-7--x-x--x--x----x--x--x--x--x--x--x-x--|
    Ab|-x-x--5-5--x-x--3-3--x-x--1-1--x-x--5-5--x-x--4--x---10-10-10-10--8--8--8-7\-|
    Db|-----------------------------------------------------------------------------|

    End of Pre Chorus 1.
    +++++++++++++++++++++++++++++++++++++++++++++++
    Chorus: Play this once.
    Guitars 1 and 2: Listen for rhythm. These are the only two chords used in the chorus.
    Strum each chord a certain number of times, listen to the song for it.

    eb|--------|
    Bb|--------|
    Gb|--------|
    Db|-3---0--|
    Ab|-3---0--|
    Db|-3---0--|

    ++++++++++++++++++++++++++++++++++++++++++++++++
    End the chorus with this little part:
    Guitars 1 and 2:
    eb|----------------|
    Bb|----------------|
    Gb|----------------|
    Db|----------------|
    Ab|----------------|
    Db|-000000--5-6-5~-|
    ......

    ++++++++++++++++++++++++++++++++++++++++++++++++
    Verse 2:
    Guitars 1 and 2: Play this twice.
    eb|---------------------------------------------------------------|
    Bb|---------------------------------------------------------------|
    Gb|---------------------------------------------------------------|
    Db|---------------------------------------------------------------|
    Ab|-0---------------0---------------0-----------------------------|
    Db|-0--0-0-0-0-0-0--0--0-0-0-0-0-0--0--0-0-0-0-0-0--000000-5-6-5~-|
    ........... ........... ........... ......

    ++++++++++++++++++++++++++++++++++++++++++++++
    Guitars 1 and 2: Play this once.
    eb|---------------------------------------------------------------|
    Bb|---------------------------------------------------------------|
    Gb|---------------------------------------------------------------|
    Db|---------------------------------------------------------------|
    Ab|-0--000-000-000--0--000-000-000--0--000-000-000----------------|
    Db|-0--000-000-000--0--000-000-000--0--000-000-000--000000-5-6-5~-|
    ........... ........... ........... ......

    ++++++++++++++++++++++++++++++++++++++++++++++
    Guitars 1 and 2:
    eb|---------------------------------------------------------------|
    Bb|---------------------------------------------------------------|
    Gb|---------------------------------------------------------------|
    Db|---------------------------------------------------------------|
    Ab|-0---------------0---------------0-----------------------------|
    Db|-0--0-0-0-0-0-0--0--0-0-0-0-0-0--0--0-0-0-0-0-0--000000-5-6-5~-|
    ........... ........... ........... ......

    ++++++++++++++++++++++++++++++++++++++++++++++
    Pre Chorus 2
    Guitars 1 and 2: This is as close as I could get this part sounding like the song.
    eb|----------------------------------------------------------------------|
    Bb|----------------------------------------------------------------------|
    Gb|-x-x--7-7--x-x--5-5--x-x--3-3--x-x--7-7--x-x--6--x--10-10-10-10--9-9--|
    Db|-x-x--7-7--x-x--5-5--x-x--3-3--x-x--7-7--x-x--x--x---x--x--x--x--x-x--|
    Ab|-x-x--5-5--x-x--3-3--x-x--1-1--x-x--5-5--x-x--4--x---8--8--8--8--7-7--|
    Db|----------------------------------------------------------------------|

    +++++++++++++++++++++++++++++++++++++++++++++++
    Pre Chorus 2 continued
    Guitars 1 and 2:
    eb|-----------------------------------------------------------------------------|
    Bb|-----------------------------------------------------------------------------|
    Gb|-x-x--7-7--x-x--5-5--x-x--3-3--x-x--7-7--x-x--6--x---12-12-12-12-10-10-10-9\-|
    Db|-x-x--7-7--x-x--5-5--x-x--3-3--x-x--7-7--x-x--x--x----x--x--x--x--x--x--x-x--|
    Ab|-x-x--5-5--x-x--3-3--x-x--1-1--x-x--5-5--x-x--4--x---10-10-10-10--8--8--8-7\-|
    Db|-----------------------------------------------------------------------------|

    +++++++++++++++++++++++++++++++++++++++++++++++
    Chorus 2: Play this twice.

    Guitars 1 and 2: Listen for rhythm. These are the only two chords used in the chorus.
    Strum each chord a certain number of times, listen to the song for it.
    eb|--------|
    Bb|--------|
    Gb|--------|
    Db|-3---0--|
    Ab|-3---0--|
    Db|-3---0--|

    ++++++++++++++++++++++++++++++++++++++++++++++++
    End the chorus with this little part:
    Guitars 1 and 2:
    eb|----------------|
    Bb|----------------|
    Gb|----------------|
    Db|----------------|
    Ab|----------------|
    Db|-000000--5-6-5~-|
    ......

    End of Chorus 2.
    ++++++++++++++++++++++++++++++++++++++++++++++++
    Pre Solo:
    Guitars 1 and 2:
    .5 .5
    eb|---------------------------------------------------------------------|
    Bb|---------------------------------------------------------------------|
    Gb|---------------------------------------------------------------------|
    Db|-7\-------------8\6-----6\3-----6/7----------------------------------|
    Ab|-5\-------------6\4-----4\1-----4/5----------------------------------|
    Db|----0-0-0-0-0-0-----0-0-----0-0-----0-0-0-0-0-0---0-0-0-7b--0-0-0-6b-|
    ........... ... ... ........... ..... .....

    ++++++++++++++++++++++++++++++++++++++++++++++
    Guitars 1 and 2:
    eb|---------------------------------------------------------------|
    Bb|---------------------------------------------------------------|
    Gb|---------------------------------------------------------------|
    Db|-7\-------------8\6-----6\3-----6/7----------------------------|
    Ab|-5\-------------6\4-----4\1-----4/5----------------------------|
    Db|----0-0-0-0-0-0-----0-0-----0-0-----0-0-0-0-0-0--000000-5-6-5~-|
    ........... ... ... ........... ......

    ++++++++++++++++++++++++++++++++++++++++++++++
    Solo: I don't know what Guitar 2 is doing in the backround of this part.

    Guitar 1: First Half of Solo:
    V_________
    .5 1 .5 1
    eb|--------------------------------------------------13-16-17b-(17)-17~~~~-|
    Bb|-13b----13b~~~---13--10-------------------------15----------------------|
    Gb|-------------------------12--12b--12b~~~------14------------------------|
    Db|--------------------------------------------15--------------------------|
    Ab|------------------------------------------17----------------------------|
    Db|------------------------------------------------------------------------|

    .5 .5 .5 .5
    eb|-22-17--------------18-17-13------------17-16-13--------------17-16-13------------------|
    Bb|-------18--------------------15-17b~~~-----------15----15b~~~----------15---------------|
    Gb|----------17-19b~~----------------------------------14--------------------14------------|
    Db|-----------------------------------------------------------------------------15-17b~~~~-|
    Ab|----------------------------------------------------------------------------------------|
    Db|----------------------------------------------------------------------------------------|

    V___________
    .5
    eb|---------13-16-17b--(17)--17~~~--|
    Bb|-------15------------------------|
    Gb|-----14--------------------------|
    Db|---15----------------------------|
    Ab|-17------------------------------|
    Db|---------------------------------|


    End of First Half of Solo.

    ++++++++++++++++++++++++++++++++++++++++++++++
    Second Half of Solo
    Guitar 1:
    1 .5
    eb|------------------------------------15b~~~~(15)--------------------|
    Bb|-------------------------------------------------------------------|
    Gb|--------------------------------14------------------12b-(12)-------|
    Db|-/12~~~----12----/14~~~------12-----------------------------12~~~--|
    Ab|-------/12----12---------/10--------------------/12----------------|
    Db|-------------------------------------------------------------------|


    .5
    eb|----------------------------------------------------------/18-17---------18-17-15----------|
    Bb|-----------------------------------------------------------------15~~-------------18-17-15-|
    Gb|-----12b-(12)------------------------12/17~~~---------14-----------------------------------|
    Db|--------------12~~~------------12------------------12--------------------------------------|
    Ab|-/12----------------------/12-----12-----------/10-----------------------------------------|
    Db|-------------------------------------------------------------------------------------------|


    eb|-20-18-17---------------------------------------|
    Bb|----------20-18-17-18-17------------------------|
    Gb|-------------------------19-17------------------|
    Db|-------------------------------19-17------------|
    Ab|-------------------------------------20-17~~~~~-|
    Db|------------------------------------------------|


    Guitar 2: Play this twice during the above part ^ ^ ^.
    eb|---------------------|
    Bb|---------------------|
    Gb|-7---5---------------|
    Db|-7---5---5---7---8---|
    Ab|-5---3---5---7---8---|
    Db|---------5---7---8---|

    End of Second Half of Solo.
    End of the whole solo.
    ++++++++++++++++++++++++++++++++++++++++++++++
    ++++++++++++++++++++++++++++++++++++++++++++++
    Interlude: This is the whole part after the solo.
    Guitars 1 and 2: These are the chords you use. Listen for rhythm of each chord.
    eb|--------------------------------------------|
    Bb|--------------------------------------------|
    Gb|--------------------------------------------|
    Db|-0---3---5---7---8------3---5---7---8---10--|
    Ab|-0---3---5---7---8------3---5---7---8---10--|
    Db|-0---3---5---7---8------3---5---7---8---10--|


    ++++++++++++++++++++++++++++++++++++++++++++++
    Break:
    Guitar 2:
    eb|----------------------------------------------------------------------|
    Bb|----------------------------------------------------------------------|
    Gb|-x-x--7-7--x-x--5-5--x-x--3-3--x-x--7-7--x-x--6--x--10-10-10-10--9-9--|
    Db|-x-x--7-7--x-x--5-5--x-x--3-3--x-x--7-7--x-x--x--x---x--x--x--x--x-x--|
    Ab|-x-x--5-5--x-x--3-3--x-x--1-1--x-x--5-5--x-x--4--x---8--8--8--8--7-7--|
    Db|----------------------------------------------------------------------|

    Guitar 1: Do this at the end of the above part:
    eb|------------|
    Bb|------------|
    Gb|------------|
    Db|------------|
    Ab|-------0-0--|
    Db|-0000--0-0--|
    .........

    +++++++++++++++++++++++++++++++++++++++++++++++
    Guitar 2:
    eb|-----------------------------------------------------------------------------------|
    Bb|-----------------------------------------------------------------------------------|
    Gb|-x-x--7-7--x-x--5-5--x-x--3-3--x-x--7-7--x-x--6--x---12-12-12-12-10-10-10----------|
    Db|-x-x--7-7--x-x--5-5--x-x--3-3--x-x--7-7--x-x--x--x----x--x--x--x--x--x--x--2-2-1-1-|
    Ab|-x-x--5-5--x-x--3-3--x-x--1-1--x-x--5-5--x-x--4--x---10-10-10-10--8--8--8--4-4-3-3-|
    Db|-----------------------------------------------------------------------------------|

    Guitar 1: Do this at the end of the above part:
    eb|--------------------------|
    Bb|--------------------------|
    Gb|--------------------------|
    Db|--------------2--2--1--1--|
    Ab|-------0-0----4--4--3--3--|
    Db|-0000--0-0----2--2--1--1--|
    .........

    End of Break.
    ++++++++++++++++++++++++++++++++++++++++++++++++
    Chorus 3: Play this twice.

    Guitars 1 and 2: Listen for rhythm. These are the only two chords used in the chorus.
    Strum each chord a certain number of times, listen to the song for it.
    eb|--------|
    Bb|--------|
    Gb|--------|
    Db|-3---0--|
    Ab|-3---0--|
    Db|-3---0--|

    ++++++++++++++++++++++++++++++++++++++++++++++++
    End the chorus with this little part:
    Guitars 1 and 2:
    eb|----------------|
    Bb|----------------|
    Gb|----------------|
    Db|----------------|
    Ab|----------------|
    Db|-000000--5-6-5~-|
    ......

    End of Chorus 3.
    +++++++++++++++++++++++++++++++++++++++++++++++++
    Guitars 1 and 2:
    .5 .5
    eb|---------------------------------------------------------------------|
    Bb|---------------------------------------------------------------------|
    Gb|---------------------------------------------------------------------|
    Db|-7\-------------8\6-----6\3-----6/7----------------------------------|
    Ab|-5\-------------6\4-----4\1-----4/5----------------------------------|
    Db|----0-0-0-0-0-0-----0-0-----0-0-----0-0-0-0-0-0---0-0-0-7b--0-0-0-6b-|
    ........... ... ... ........... ..... .....

    ++++++++++++++++++++++++++++++++++++++++++++++
    Guitars 1 and 2:
    eb|---------------------------------------------------------------|
    Bb|---------------------------------------------------------------|
    Gb|---------------------------------------------------------------|
    Db|-7\-------------8\6-----6\3-----6/7----------------------------|
    Ab|-5\-------------6\4-----4\1-----4/5----------------------------|
    Db|----0-0-0-0-0-0-----0-0-----0-0-----0-0-0-0-0-0--000000-5-6-5~-|
    ........... ... ... ........... ......


    End of song.


    Tags Tags:
  • Comments

    No comments yet

    Suivre le flux RSS des commentaires


    Add comment

    Name / User name:

    E-mail (optional):

    Website (optional):

    Comment: